ISO-10303-21;
HEADER;
FILE_DESCRIPTION (( 'STEP AP214' ),
    '1' );
FILE_NAME ('2033026_KSTP1.stp',
    '2018-09-11T08:49:16',
    ( '' ),
    ( '' ),
    'SwSTEP 2.0',
    'SolidWorks 2018',
    '' );
FILE_SCHEMA (( 'AUTOMOTIVE_DESIGN' ));
ENDSEC;

DATA;
#1 = CARTESIAN_POINT ( 'NONE',  ( 2.746436091176963538E-14, -68.83648648648677693, 0.0000000000000000000 ) ) ;
#2 =( NAMED_UNIT ( * ) SI_UNIT ( $, .STERADIAN. ) SOLID_ANGLE_UNIT ( ) );
#3 = AXIS2_PLACEMENT_3D ( 'NONE', #103, #223, #248 ) ;
#4 = DIRECTION ( 'NONE',  ( -0.0000000000000000000, 0.0000000000000000000, -1.000000000000000000 ) ) ;
#5 = ORIENTED_EDGE ( 'NONE', *, *, #344, .F. ) ;
#6 = AXIS2_PLACEMENT_3D ( 'NONE', #325, #269, #95 ) ;
#7 = DIRECTION ( 'NONE',  ( -1.224646799147353207E-16, 8.921339210915059975E-32, 1.000000000000000000 ) ) ;
#8 = LINE ( 'NONE', #21, #232 ) ;
#9 = VERTEX_POINT ( 'NONE', #20 ) ;
#10 = ADVANCED_FACE ( 'NONE', ( #50 ), #58, .T. ) ;
#11 = CIRCLE ( 'NONE', #285, 17.19653266046553242 ) ;
#12 = CARTESIAN_POINT ( 'NONE',  ( -19.99999999999998934, -0.5000000000000011102, 0.0000000000000000000 ) ) ;
#13 = ORIENTED_EDGE ( 'NONE', *, *, #105, .T. ) ;
#14 = EDGE_CURVE ( 'NONE', #28, #19, #287, .T. ) ;
#15 = ADVANCED_BREP_SHAPE_REPRESENTATION ( '2033026_KSTP1', ( #46, #6 ), #336 ) ;
#16 = CARTESIAN_POINT ( 'NONE',  ( 3.011583331289004193E-14, -8.500000000000010658, 0.0000000000000000000 ) ) ;
#17 = PRESENTATION_LAYER_ASSIGNMENT (  '', '', ( #184 ) ) ;
#18 = FACE_OUTER_BOUND ( 'NONE', #63, .T. ) ;
#19 = VERTEX_POINT ( 'NONE', #180 ) ;
#20 = CARTESIAN_POINT ( 'NONE',  ( -19.99999999999998579, -8.499999999999998224, 0.0000000000000000000 ) ) ;
#21 = CARTESIAN_POINT ( 'NONE',  ( -17.49999999999999289, -8.499999999999998224, 2.143131898507870615E-15 ) ) ;
#22 = DIRECTION ( 'NONE',  ( -1.000000000000000000, 7.306579858054467968E-16, 0.0000000000000000000 ) ) ;
#23 = VECTOR ( 'NONE', #137, 1000.000000000000000 ) ;
#24 = ORIENTED_EDGE ( 'NONE', *, *, #312, .F. ) ;
#25 =( LENGTH_UNIT ( ) NAMED_UNIT ( * ) SI_UNIT ( .MILLI., .METRE. ) );
#26 = FILL_AREA_STYLE_COLOUR ( '', #250 ) ;
#27 = CYLINDRICAL_SURFACE ( 'NONE', #246, 23.00000000000005684 ) ;
#28 = VERTEX_POINT ( 'NONE', #264 ) ;
#29 = EDGE_LOOP ( 'NONE', ( #301, #132 ) ) ;
#30 = DIRECTION ( 'NONE',  ( -7.284826300225047977E-16, -1.000000000000000000, 0.0000000000000000000 ) ) ;
#31 = CIRCLE ( 'NONE', #282, 20.00000000000002487 ) ;
#32 = AXIS2_PLACEMENT_3D ( 'NONE', #119, #30, #54 ) ;
#33 = CARTESIAN_POINT ( 'NONE',  ( 3.594369435307007795E-14, -0.5000000000000143219, 0.0000000000000000000 ) ) ;
#34 = CARTESIAN_POINT ( 'NONE',  ( 3.011583331289004193E-14, -8.500000000000010658, 0.0000000000000000000 ) ) ;
#35 = CIRCLE ( 'NONE', #177, 17.50000000000001776 ) ;
#36 = VERTEX_POINT ( 'NONE', #120 ) ;
#37 = EDGE_LOOP ( 'NONE', ( #41, #162, #245 ) ) ;
#38 = CARTESIAN_POINT ( 'NONE',  ( -23.00000000000001776, 4.500000000000020428, 0.0000000000000000000 ) ) ;
#39 = EDGE_CURVE ( 'NONE', #85, #110, #136, .T. ) ;
#40 = DIRECTION ( 'NONE',  ( 7.284826300225047977E-16, 1.000000000000000000, -0.0000000000000000000 ) ) ;
#41 = ORIENTED_EDGE ( 'NONE', *, *, #94, .F. ) ;
#42 = PRODUCT_DEFINITION ( 'UNKNOWN', '', #167, #152 ) ;
#43 = EDGE_CURVE ( 'NONE', #36, #334, #187, .T. ) ;
#44 = ORIENTED_EDGE ( 'NONE', *, *, #140, .T. ) ;
#45 = CARTESIAN_POINT ( 'NONE',  ( 3.011583331289004193E-14, -8.500000000000012434, 0.0000000000000000000 ) ) ;
#46 = MANIFOLD_SOLID_BREP ( 'Revolve1', #294 ) ;
#47 =( GEOMETRIC_REPRESENTATION_CONTEXT ( 3 ) GLOBAL_UNCERTAINTY_ASSIGNED_CONTEXT ( ( #276 ) ) GLOBAL_UNIT_ASSIGNED_CONTEXT ( ( #78, #52, #2 ) ) REPRESENTATION_CONTEXT ( 'NONE', 'WORKASPACE' ) );
#48 = ORIENTED_EDGE ( 'NONE', *, *, #90, .F. ) ;
#49 = DIRECTION ( 'NONE',  ( 7.284826300225047977E-16, 1.000000000000000000, -0.0000000000000000000 ) ) ;
#50 = FACE_OUTER_BOUND ( 'NONE', #343, .T. ) ;
#51 = SURFACE_STYLE_USAGE ( .BOTH. , #215 ) ;
#52 =( NAMED_UNIT ( * ) PLANE_ANGLE_UNIT ( ) SI_UNIT ( $, .RADIAN. ) );
#53 = AXIS2_PLACEMENT_3D ( 'NONE', #331, #107, #192 ) ;
#54 = DIRECTION ( 'NONE',  ( 1.000000000000000000, -6.938893903907219503E-16, 0.0000000000000000000 ) ) ;
#55 = COLOUR_RGB ( '',0.7529411764705882248, 0.7529411764705882248, 0.7529411764705882248 ) ;
#56 = PRESENTATION_LAYER_ASSIGNMENT (  '', '', ( #222 ) ) ;
#57 = LINE ( 'NONE', #117, #91 ) ;
#58 = CYLINDRICAL_SURFACE ( 'NONE', #171, 20.00000000000002487 ) ;
#59 = DIRECTION ( 'NONE',  ( 7.284826300225047977E-16, 1.000000000000000000, -0.0000000000000000000 ) ) ;
#60 = ORIENTED_EDGE ( 'NONE', *, *, #140, .F. ) ;
#61 = ORIENTED_EDGE ( 'NONE', *, *, #148, .F. ) ;
#62 = AXIS2_PLACEMENT_3D ( 'NONE', #168, #80, #224 ) ;
#63 = EDGE_LOOP ( 'NONE', ( #60, #313 ) ) ;
#64 = DIRECTION ( 'NONE',  ( -1.000000000000000000, 7.264154555652870833E-16, 0.0000000000000000000 ) ) ;
#65 = DIRECTION ( 'NONE',  ( -1.000000000000000000, 7.569376976014045687E-16, 0.0000000000000000000 ) ) ;
#66 = AXIS2_PLACEMENT_3D ( 'NONE', #77, #7, #139 ) ;
#67 = SPHERICAL_SURFACE ( 'NONE', #84, 73.33648648648679114 ) ;
#68 = ORIENTED_EDGE ( 'NONE', *, *, #112, .F. ) ;
#69 = DIRECTION ( 'NONE',  ( 0.03489949670250094144, -0.9993908270190956511, 0.0000000000000000000 ) ) ;
#70 = CARTESIAN_POINT ( 'NONE',  ( 3.958610750318261387E-14, 4.500000000000003553, 0.0000000000000000000 ) ) ;
#71 = SPHERICAL_SURFACE ( 'NONE', #348, 71.13648648648678829 ) ;
#72 = ORIENTED_EDGE ( 'NONE', *, *, #39, .F. ) ;
#73 = EDGE_CURVE ( 'NONE', #85, #179, #286, .T. ) ;
#74 = APPLICATION_PROTOCOL_DEFINITION ( 'draft international standard', 'automotive_design', 1998, #156 ) ;
#75 =( NAMED_UNIT ( * ) SI_UNIT ( $, .STERADIAN. ) SOLID_ANGLE_UNIT ( ) );
#76 = ORIENTED_EDGE ( 'NONE', *, *, #338, .T. ) ;
#77 = CARTESIAN_POINT ( 'NONE',  ( 2.746436091176963538E-14, -68.83648648648677693, 0.0000000000000000000 ) ) ;
#78 =( LENGTH_UNIT ( ) NAMED_UNIT ( * ) SI_UNIT ( .MILLI., .METRE. ) );
#79 = FACE_OUTER_BOUND ( 'NONE', #290, .T. ) ;
#80 = DIRECTION ( 'NONE',  ( 7.284826300225047977E-16, 1.000000000000000000, -0.0000000000000000000 ) ) ;
#81 = ADVANCED_FACE ( 'NONE', ( #270 ), #350, .F. ) ;
#82 = PLANE ( 'NONE',  #243 ) ;
#83 = ORIENTED_EDGE ( 'NONE', *, *, #43, .T. ) ;
#84 = AXIS2_PLACEMENT_3D ( 'NONE', #196, #104, #303 ) ;
#85 = VERTEX_POINT ( 'NONE', #170 ) ;
#86 = ADVANCED_FACE ( 'NONE', ( #93 ), #318, .T. ) ;
#87 = DIRECTION ( 'NONE',  ( 1.000000000000000000, -7.284826300225047977E-16, 0.0000000000000000000 ) ) ;
#88 = ORIENTED_EDGE ( 'NONE', *, *, #326, .T. ) ;
#89 = AXIS2_PLACEMENT_3D ( 'NONE', #291, #239, #347 ) ;
#90 = EDGE_CURVE ( 'NONE', #283, #306, #219, .T. ) ;
#91 = VECTOR ( 'NONE', #69, 1000.000000000000227 ) ;
#92 = ORIENTED_EDGE ( 'NONE', *, *, #338, .F. ) ;
#93 = FACE_OUTER_BOUND ( 'NONE', #174, .T. ) ;
#94 = EDGE_CURVE ( 'NONE', #273, #36, #323, .T. ) ;
#95 = DIRECTION ( 'NONE',  ( 1.000000000000000000, 0.0000000000000000000, 0.0000000000000000000 ) ) ;
#96 = FILL_AREA_STYLE_COLOUR ( '', #55 ) ;
#97 = DIRECTION ( 'NONE',  ( 7.284826300225047977E-16, 1.000000000000000000, -0.0000000000000000000 ) ) ;
#98 = FACE_OUTER_BOUND ( 'NONE', #199, .T. ) ;
#99 = EDGE_LOOP ( 'NONE', ( #208, #340, #88 ) ) ;
#100 = EDGE_LOOP ( 'NONE', ( #92, #277, #188, #72 ) ) ;
#101 = EDGE_LOOP ( 'NONE', ( #259, #216, #123 ) ) ;
#102 = AXIS2_PLACEMENT_3D ( 'NONE', #1, #272, #124 ) ;
#103 = CARTESIAN_POINT ( 'NONE',  ( 3.958610750318261387E-14, 4.500000000000003553, 0.0000000000000000000 ) ) ;
#104 = DIRECTION ( 'NONE',  ( 0.0000000000000000000, 0.0000000000000000000, 1.000000000000000000 ) ) ;
#105 = EDGE_CURVE ( 'NONE', #198, #19, #309, .T. ) ;
#106 = ADVANCED_FACE ( 'NONE', ( #240 ), #67, .T. ) ;
#107 = DIRECTION ( 'NONE',  ( 7.284826300225047977E-16, 1.000000000000000000, -0.0000000000000000000 ) ) ;
#108 = CARTESIAN_POINT ( 'NONE',  ( 3.594369435307007164E-14, -0.5000000000000168754, 0.0000000000000000000 ) ) ;
#109 = CARTESIAN_POINT ( 'NONE',  ( 2.746436091176963538E-14, -68.83648648648677693, 0.0000000000000000000 ) ) ;
#110 = VERTEX_POINT ( 'NONE', #197 ) ;
#111 = DIRECTION ( 'NONE',  ( -7.284826300225047977E-16, -1.000000000000000000, 0.0000000000000000000 ) ) ;
#112 = EDGE_CURVE ( 'NONE', #9, #198, #126, .T. ) ;
#113 = FILL_AREA_STYLE ('',( #96 ) ) ;
#114 = CIRCLE ( 'NONE', #89, 23.00000000000005684 ) ;
#115 = ORIENTED_EDGE ( 'NONE', *, *, #274, .F. ) ;
#116 = DIRECTION ( 'NONE',  ( 7.284826300225047977E-16, 1.000000000000000000, -0.0000000000000000000 ) ) ;
#117 = CARTESIAN_POINT ( 'NONE',  ( 17.50000000000005329, -8.500000000000023093, 0.0000000000000000000 ) ) ;
#118 = CARTESIAN_POINT ( 'NONE',  ( 3.958610750318261387E-14, 4.500000000000003553, 0.0000000000000000000 ) ) ;
#119 = CARTESIAN_POINT ( 'NONE',  ( 3.011583331289004193E-14, -8.500000000000010658, 0.0000000000000000000 ) ) ;
#120 = CARTESIAN_POINT ( 'NONE',  ( -17.19653266046553597, 0.1901675980019031653, 0.0000000000000000000 ) ) ;
#121 = CARTESIAN_POINT ( 'NONE',  ( 2.746436091176963538E-14, -68.83648648648677693, 0.0000000000000000000 ) ) ;
#122 = ORIENTED_EDGE ( 'NONE', *, *, #217, .F. ) ;
#123 = ORIENTED_EDGE ( 'NONE', *, *, #326, .F. ) ;
#124 = DIRECTION ( 'NONE',  ( 1.000000000000000000, 0.0000000000000000000, 1.224646799147353454E-16 ) ) ;
#125 = AXIS2_PLACEMENT_3D ( 'NONE', #317, #153, #22 ) ;
#126 = LINE ( 'NONE', #304, #144 ) ;
#127 = DIRECTION ( 'NONE',  ( -1.000000000000000000, 0.0000000000000000000, 0.0000000000000000000 ) ) ;
#128 = ORIENTED_EDGE ( 'NONE', *, *, #302, .F. ) ;
#129 = EDGE_CURVE ( 'NONE', #280, #110, #212, .T. ) ;
#130 =( NAMED_UNIT ( * ) SI_UNIT ( $, .STERADIAN. ) SOLID_ANGLE_UNIT ( ) );
#131 = APPLICATION_PROTOCOL_DEFINITION ( 'draft international standard', 'automotive_design', 1998, #158 ) ;
#132 = ORIENTED_EDGE ( 'NONE', *, *, #90, .T. ) ;
#133 = ADVANCED_FACE ( 'NONE', ( #79 ), #299, .T. ) ;
#134 = AXIS2_PLACEMENT_3D ( 'NONE', #146, #201, #315 ) ;
#135 = ADVANCED_FACE ( 'NONE', ( #293, #18 ), #82, .T. ) ;
#136 = CIRCLE ( 'NONE', #233, 23.00000000000005684 ) ;
#137 = DIRECTION ( 'NONE',  ( 7.284826300225047977E-16, 1.000000000000000000, -0.0000000000000000000 ) ) ;
#138 = DIRECTION ( 'NONE',  ( -1.000000000000000000, 7.165162183382446293E-16, 0.0000000000000000000 ) ) ;
#139 = DIRECTION ( 'NONE',  ( 1.000000000000000000, 0.0000000000000000000, 1.224646799147352961E-16 ) ) ;
#140 = EDGE_CURVE ( 'NONE', #280, #271, #173, .T. ) ;
#141 = ORIENTED_EDGE ( 'NONE', *, *, #225, .T. ) ;
#142 = DIRECTION ( 'NONE',  ( 0.0000000000000000000, 0.0000000000000000000, 1.000000000000000000 ) ) ;
#143 = SHAPE_DEFINITION_REPRESENTATION ( #320, #15 ) ;
#144 = VECTOR ( 'NONE', #40, 1000.000000000000000 ) ;
#145 = AXIS2_PLACEMENT_3D ( 'NONE', #213, #4, #127 ) ;
#146 = CARTESIAN_POINT ( 'NONE',  ( 2.746436091176963538E-14, -68.83648648648677693, 0.0000000000000000000 ) ) ;
#147 = CARTESIAN_POINT ( 'NONE',  ( 3.011583331289004193E-14, -8.500000000000012434, 0.0000000000000000000 ) ) ;
#148 = EDGE_CURVE ( 'NONE', #19, #198, #31, .T. ) ;
#149 = CARTESIAN_POINT ( 'NONE',  ( 23.00000000000008882, -0.5000000000000337508, 2.816687638038919057E-15 ) ) ;
#150 = CONICAL_SURFACE ( 'NONE', #332, 17.50000000000002132, 0.03490658503988729178 ) ;
#151 = DIRECTION ( 'NONE',  ( -1.000000000000000000, 7.803471041798335223E-16, 0.0000000000000000000 ) ) ;
#152 = PRODUCT_DEFINITION_CONTEXT ( 'detailed design', #158, 'design' ) ;
#153 = DIRECTION ( 'NONE',  ( 7.284826300225047977E-16, 1.000000000000000000, -0.0000000000000000000 ) ) ;
#154 = CIRCLE ( 'NONE', #102, 71.13648648648678829 ) ;
#155 = MECHANICAL_DESIGN_GEOMETRIC_PRESENTATION_REPRESENTATION (  '', ( #184 ), #47 ) ;
#156 = APPLICATION_CONTEXT ( 'automotive_design' ) ;
#157 = CARTESIAN_POINT ( 'NONE',  ( 3.689072177209932504E-14, 0.7999999999999782840, 0.0000000000000000000 ) ) ;
#158 = APPLICATION_CONTEXT ( 'automotive_design' ) ;
#159 = SURFACE_SIDE_STYLE ('',( #194 ) ) ;
#160 = CIRCLE ( 'NONE', #125, 23.00000000000005684 ) ;
#161 = ORIENTED_EDGE ( 'NONE', *, *, #148, .T. ) ;
#162 = ORIENTED_EDGE ( 'NONE', *, *, #312, .T. ) ;
#163 = UNCERTAINTY_MEASURE_WITH_UNIT (LENGTH_MEASURE( 1.000000000000000082E-05 ), #244, 'distance_accuracy_value', 'NONE');
#164 = FACE_OUTER_BOUND ( 'NONE', #37, .T. ) ;
#165 = DIRECTION ( 'NONE',  ( 1.000000000000000000, -7.284826300225047977E-16, 0.0000000000000000000 ) ) ;
#166 = ADVANCED_FACE ( 'NONE', ( #98 ), #150, .F. ) ;
#167 = PRODUCT_DEFINITION_FORMATION_WITH_SPECIFIED_SOURCE ( 'ANY', '', #172, .NOT_KNOWN. ) ;
#168 = CARTESIAN_POINT ( 'NONE',  ( 3.644646946001881914E-14, 0.1901675980018908141, 0.0000000000000000000 ) ) ;
#169 = ADVANCED_FACE ( 'NONE', ( #164 ), #71, .F. ) ;
#170 = CARTESIAN_POINT ( 'NONE',  ( 23.00000000000009237, 0.7999999999999614086, 2.816687638038919846E-15 ) ) ;
#171 = AXIS2_PLACEMENT_3D ( 'NONE', #70, #261, #211 ) ;
#172 = PRODUCT ( '2033026_KSTP1', '2033026_KSTP1', '', ( #265 ) ) ;
#173 = CIRCLE ( 'NONE', #249, 23.00000000000005684 ) ;
#174 = EDGE_LOOP ( 'NONE', ( #346, #296, #203, #68 ) ) ;
#175 = SURFACE_STYLE_FILL_AREA ( #185 ) ;
#176 = FACE_OUTER_BOUND ( 'NONE', #255, .T. ) ;
#177 = AXIS2_PLACEMENT_3D ( 'NONE', #16, #207, #289 ) ;
#178 = CARTESIAN_POINT ( 'NONE',  ( 2.746436091176963538E-14, -68.83648648648677693, 0.0000000000000000000 ) ) ;
#179 = VERTEX_POINT ( 'NONE', #335 ) ;
#180 = CARTESIAN_POINT ( 'NONE',  ( 20.00000000000006040, -0.5000000000000288658, 2.449293598294709274E-15 ) ) ;
#181 = DIRECTION ( 'NONE',  ( 0.0000000000000000000, 0.0000000000000000000, 1.000000000000000000 ) ) ;
#182 = VECTOR ( 'NONE', #209, 1000.000000000000000 ) ;
#183 = CIRCLE ( 'NONE', #145, 73.33648648648679114 ) ;
#184 = STYLED_ITEM ( 'NONE', ( #214 ), #46 ) ;
#185 = FILL_AREA_STYLE ('',( #26 ) ) ;
#186 = DIRECTION ( 'NONE',  ( 7.284826300225047977E-16, 1.000000000000000000, -0.0000000000000000000 ) ) ;
#187 = CIRCLE ( 'NONE', #134, 71.13648648648678829 ) ;
#188 = ORIENTED_EDGE ( 'NONE', *, *, #129, .T. ) ;
#189 = SURFACE_STYLE_USAGE ( .BOTH. , #159 ) ;
#190 = DIRECTION ( 'NONE',  ( 1.000000000000000000, -6.938893903907219503E-16, 0.0000000000000000000 ) ) ;
#191 = AXIS2_PLACEMENT_3D ( 'NONE', #256, #111, #87 ) ;
#192 = DIRECTION ( 'NONE',  ( -1.000000000000000000, 7.264154555652870833E-16, 0.0000000000000000000 ) ) ;
#193 = SPHERICAL_SURFACE ( 'NONE', #230, 71.13648648648678829 ) ;
#194 = SURFACE_STYLE_FILL_AREA ( #113 ) ;
#195 = ADVANCED_FACE ( 'NONE', ( #278, #176 ), #337, .T. ) ;
#196 = CARTESIAN_POINT ( 'NONE',  ( 2.746436091176963538E-14, -68.83648648648677693, 0.0000000000000000000 ) ) ;
#197 = CARTESIAN_POINT ( 'NONE',  ( -23.00000000000001776, 0.7999999999999950484, 0.0000000000000000000 ) ) ;
#198 = VERTEX_POINT ( 'NONE', #284 ) ;
#199 = EDGE_LOOP ( 'NONE', ( #307, #345, #236, #115 ) ) ;
#200 = AXIS2_PLACEMENT_3D ( 'NONE', #147, #49, #341 ) ;
#201 = DIRECTION ( 'NONE',  ( -0.0000000000000000000, 0.0000000000000000000, -1.000000000000000000 ) ) ;
#202 = FACE_OUTER_BOUND ( 'NONE', #99, .T. ) ;
#203 = ORIENTED_EDGE ( 'NONE', *, *, #105, .F. ) ;
#204 = DIRECTION ( 'NONE',  ( -1.000000000000000000, 7.803471041798335223E-16, 0.0000000000000000000 ) ) ;
#205 = EDGE_CURVE ( 'NONE', #306, #283, #35, .T. ) ;
#206 = DIRECTION ( 'NONE',  ( 0.0000000000000000000, 0.0000000000000000000, 1.000000000000000000 ) ) ;
#207 = DIRECTION ( 'NONE',  ( 7.284826300225047977E-16, 1.000000000000000000, -0.0000000000000000000 ) ) ;
#208 = ORIENTED_EDGE ( 'NONE', *, *, #73, .F. ) ;
#209 = DIRECTION ( 'NONE',  ( 7.284826300225047977E-16, 1.000000000000000000, -0.0000000000000000000 ) ) ;
#210 = AXIS2_PLACEMENT_3D ( 'NONE', #178, #181, #65 ) ;
#211 = DIRECTION ( 'NONE',  ( -1.000000000000000000, 7.372574772901421277E-16, 0.0000000000000000000 ) ) ;
#212 = LINE ( 'NONE', #38, #23 ) ;
#213 = CARTESIAN_POINT ( 'NONE',  ( 2.746436091176963538E-14, -68.83648648648677693, 0.0000000000000000000 ) ) ;
#214 = PRESENTATION_STYLE_ASSIGNMENT (( #189 ) ) ;
#215 = SURFACE_SIDE_STYLE ('',( #175 ) ) ;
#216 = ORIENTED_EDGE ( 'NONE', *, *, #73, .T. ) ;
#217 = EDGE_CURVE ( 'NONE', #9, #28, #305, .T. ) ;
#218 = ORIENTED_EDGE ( 'NONE', *, *, #274, .T. ) ;
#219 = CIRCLE ( 'NONE', #238, 17.50000000000001776 ) ;
#220 = DIRECTION ( 'NONE',  ( 7.284826300225047977E-16, 1.000000000000000000, -0.0000000000000000000 ) ) ;
#221 = EDGE_LOOP ( 'NONE', ( #13, #161 ) ) ;
#222 = STYLED_ITEM ( 'NONE', ( #231 ), #15 ) ;
#223 = DIRECTION ( 'NONE',  ( 7.284826300225047977E-16, 1.000000000000000000, -0.0000000000000000000 ) ) ;
#224 = DIRECTION ( 'NONE',  ( -1.000000000000000000, 7.282011635401723348E-16, 0.0000000000000000000 ) ) ;
#225 = EDGE_CURVE ( 'NONE', #28, #9, #330, .T. ) ;
#226 = CARTESIAN_POINT ( 'NONE',  ( 3.958610750318261387E-14, 4.500000000000003553, 0.0000000000000000000 ) ) ;
#227 = ORIENTED_EDGE ( 'NONE', *, *, #14, .F. ) ;
#228 = EDGE_LOOP ( 'NONE', ( #253, #352, #218, #48 ) ) ;
#229 = DIRECTION ( 'NONE',  ( -1.000000000000000000, 7.306579858054467968E-16, 0.0000000000000000000 ) ) ;
#230 = AXIS2_PLACEMENT_3D ( 'NONE', #121, #206, #151 ) ;
#231 = PRESENTATION_STYLE_ASSIGNMENT (( #51 ) ) ;
#232 = VECTOR ( 'NONE', #237, 1000.000000000000000 ) ;
#233 = AXIS2_PLACEMENT_3D ( 'NONE', #157, #351, #308 ) ;
#234 = CARTESIAN_POINT ( 'NONE',  ( 17.19653266046565321, 0.1901675980018767698, 2.105967867907208590E-15 ) ) ;
#235 = FACE_OUTER_BOUND ( 'NONE', #247, .T. ) ;
#236 = ORIENTED_EDGE ( 'NONE', *, *, #205, .F. ) ;
#237 = DIRECTION ( 'NONE',  ( -0.03489949670250239860, -0.9993908270190956511, 4.273955692857228082E-18 ) ) ;
#238 = AXIS2_PLACEMENT_3D ( 'NONE', #34, #59, #281 ) ;
#239 = DIRECTION ( 'NONE',  ( 7.284826300225047977E-16, 1.000000000000000000, -0.0000000000000000000 ) ) ;
#240 = FACE_OUTER_BOUND ( 'NONE', #101, .T. ) ;
#241 = MECHANICAL_DESIGN_GEOMETRIC_PRESENTATION_REPRESENTATION (  '', ( #222 ), #298 ) ;
#242 = DIRECTION ( 'NONE',  ( -1.000000000000000000, 7.282011635401723348E-16, 0.0000000000000000000 ) ) ;
#243 = AXIS2_PLACEMENT_3D ( 'NONE', #12, #329, #165 ) ;
#244 =( LENGTH_UNIT ( ) NAMED_UNIT ( * ) SI_UNIT ( .MILLI., .METRE. ) );
#245 = ORIENTED_EDGE ( 'NONE', *, *, #43, .F. ) ;
#246 = AXIS2_PLACEMENT_3D ( 'NONE', #118, #316, #257 ) ;
#247 = EDGE_LOOP ( 'NONE', ( #24, #5, #83 ) ) ;
#248 = DIRECTION ( 'NONE',  ( -1.000000000000000000, 7.372574772901421277E-16, 0.0000000000000000000 ) ) ;
#249 = AXIS2_PLACEMENT_3D ( 'NONE', #108, #333, #229 ) ;
#250 = COLOUR_RGB ( '',0.7529411764705882248, 0.7529411764705882248, 0.7529411764705882248 ) ;
#251 = ADVANCED_FACE ( 'NONE', ( #202 ), #252, .T. ) ;
#252 = SPHERICAL_SURFACE ( 'NONE', #210, 73.33648648648679114 ) ;
#253 = ORIENTED_EDGE ( 'NONE', *, *, #268, .F. ) ;
#254 = CARTESIAN_POINT ( 'NONE',  ( 3.011583331289004193E-14, -8.500000000000010658, 0.0000000000000000000 ) ) ;
#255 = EDGE_LOOP ( 'NONE', ( #122, #327 ) ) ;
#256 = CARTESIAN_POINT ( 'NONE',  ( -17.49999999999999289, -8.500000000000000000, 0.0000000000000000000 ) ) ;
#257 = DIRECTION ( 'NONE',  ( -1.000000000000000000, 7.165162183382446293E-16, 0.0000000000000000000 ) ) ;
#258 = VECTOR ( 'NONE', #186, 1000.000000000000000 ) ;
#259 = ORIENTED_EDGE ( 'NONE', *, *, #302, .T. ) ;
#260 = AXIS2_PLACEMENT_3D ( 'NONE', #226, #300, #138 ) ;
#261 = DIRECTION ( 'NONE',  ( 7.284826300225047977E-16, 1.000000000000000000, -0.0000000000000000000 ) ) ;
#262 = CARTESIAN_POINT ( 'NONE',  ( 20.00000000000006395, 4.499999999999989342, 2.449293598294709274E-15 ) ) ;
#263 = CARTESIAN_POINT ( 'NONE',  ( 7.493020215409265992E-14, 2.300000000000010481, 0.0000000000000000000 ) ) ;
#264 = CARTESIAN_POINT ( 'NONE',  ( 20.00000000000004974, -8.500000000000026645, 2.449293598294709274E-15 ) ) ;
#265 = PRODUCT_CONTEXT ( 'NONE', #156, 'mechanical' ) ;
#266 = AXIS2_PLACEMENT_3D ( 'NONE', #45, #116, #310 ) ;
#267 = CARTESIAN_POINT ( 'NONE',  ( 23.00000000000009237, 4.499999999999987566, 2.816687638038919057E-15 ) ) ;
#268 = EDGE_CURVE ( 'NONE', #36, #283, #8, .T. ) ;
#269 = DIRECTION ( 'NONE',  ( 0.0000000000000000000, 0.0000000000000000000, 1.000000000000000000 ) ) ;
#270 = FACE_OUTER_BOUND ( 'NONE', #228, .T. ) ;
#271 = VERTEX_POINT ( 'NONE', #149 ) ;
#272 = DIRECTION ( 'NONE',  ( -1.224646799147353207E-16, 8.921339210915059975E-32, 1.000000000000000000 ) ) ;
#273 = VERTEX_POINT ( 'NONE', #234 ) ;
#274 = EDGE_CURVE ( 'NONE', #273, #306, #57, .T. ) ;
#275 = ADVANCED_FACE ( 'NONE', ( #339 ), #27, .T. ) ;
#276 = UNCERTAINTY_MEASURE_WITH_UNIT (LENGTH_MEASURE( 1.000000000000000082E-05 ), #78, 'distance_accuracy_value', 'NONE');
#277 = ORIENTED_EDGE ( 'NONE', *, *, #288, .T. ) ;
#278 = FACE_BOUND ( 'NONE', #29, .T. ) ;
#279 = UNCERTAINTY_MEASURE_WITH_UNIT (LENGTH_MEASURE( 1.000000000000000082E-05 ), #25, 'distance_accuracy_value', 'NONE');
#280 = VERTEX_POINT ( 'NONE', #342 ) ;
#281 = DIRECTION ( 'NONE',  ( -1.000000000000000000, 6.938893903907221475E-16, 0.0000000000000000000 ) ) ;
#282 = AXIS2_PLACEMENT_3D ( 'NONE', #33, #220, #64 ) ;
#283 = VERTEX_POINT ( 'NONE', #314 ) ;
#284 = CARTESIAN_POINT ( 'NONE',  ( -19.99999999999998934, -0.4999999999999997780, 0.0000000000000000000 ) ) ;
#285 = AXIS2_PLACEMENT_3D ( 'NONE', #322, #97, #242 ) ;
#286 = CIRCLE ( 'NONE', #66, 73.33648648648679114 ) ;
#287 = LINE ( 'NONE', #262, #182 ) ;
#288 = EDGE_CURVE ( 'NONE', #271, #280, #114, .T. ) ;
#289 = DIRECTION ( 'NONE',  ( -1.000000000000000000, 6.938893903907221475E-16, 0.0000000000000000000 ) ) ;
#290 = EDGE_LOOP ( 'NONE', ( #44, #76, #128, #311 ) ) ;
#291 = CARTESIAN_POINT ( 'NONE',  ( 3.594369435307007164E-14, -0.5000000000000168754, 0.0000000000000000000 ) ) ;
#292 = CARTESIAN_POINT ( 'NONE',  ( 17.50000000000005329, -8.500000000000023093, 0.0000000000000000000 ) ) ;
#293 = FACE_BOUND ( 'NONE', #221, .T. ) ;
#294 = CLOSED_SHELL ( 'NONE', ( #166, #169, #106, #133, #86, #10, #135, #275, #251, #297, #81, #195 ) ) ;
#295 = LINE ( 'NONE', #267, #258 ) ;
#296 = ORIENTED_EDGE ( 'NONE', *, *, #14, .T. ) ;
#297 = ADVANCED_FACE ( 'NONE', ( #235 ), #193, .F. ) ;
#298 =( GEOMETRIC_REPRESENTATION_CONTEXT ( 3 ) GLOBAL_UNCERTAINTY_ASSIGNED_CONTEXT ( ( #163 ) ) GLOBAL_UNIT_ASSIGNED_CONTEXT ( ( #244, #349, #75 ) ) REPRESENTATION_CONTEXT ( 'NONE', 'WORKASPACE' ) );
#299 = CYLINDRICAL_SURFACE ( 'NONE', #260, 23.00000000000005684 ) ;
#300 = DIRECTION ( 'NONE',  ( 7.284826300225047977E-16, 1.000000000000000000, -0.0000000000000000000 ) ) ;
#301 = ORIENTED_EDGE ( 'NONE', *, *, #205, .T. ) ;
#302 = EDGE_CURVE ( 'NONE', #110, #85, #160, .T. ) ;
#303 = DIRECTION ( 'NONE',  ( -1.000000000000000000, 7.569376976014045687E-16, 0.0000000000000000000 ) ) ;
#304 = CARTESIAN_POINT ( 'NONE',  ( -19.99999999999998579, 4.500000000000018652, 0.0000000000000000000 ) ) ;
#305 = CIRCLE ( 'NONE', #266, 20.00000000000001776 ) ;
#306 = VERTEX_POINT ( 'NONE', #292 ) ;
#307 = ORIENTED_EDGE ( 'NONE', *, *, #94, .T. ) ;
#308 = DIRECTION ( 'NONE',  ( -1.000000000000000000, 7.306579858054467968E-16, 0.0000000000000000000 ) ) ;
#309 = CIRCLE ( 'NONE', #53, 20.00000000000002487 ) ;
#310 = DIRECTION ( 'NONE',  ( -1.000000000000000000, 6.938893903907222461E-16, 0.0000000000000000000 ) ) ;
#311 = ORIENTED_EDGE ( 'NONE', *, *, #129, .F. ) ;
#312 = EDGE_CURVE ( 'NONE', #273, #334, #154, .T. ) ;
#313 = ORIENTED_EDGE ( 'NONE', *, *, #288, .F. ) ;
#314 = CARTESIAN_POINT ( 'NONE',  ( -17.49999999999999289, -8.499999999999998224, 2.143131898507870615E-15 ) ) ;
#315 = DIRECTION ( 'NONE',  ( -1.000000000000000000, 0.0000000000000000000, 0.0000000000000000000 ) ) ;
#316 = DIRECTION ( 'NONE',  ( 7.284826300225047977E-16, 1.000000000000000000, -0.0000000000000000000 ) ) ;
#317 = CARTESIAN_POINT ( 'NONE',  ( 3.689072177209932504E-14, 0.7999999999999782840, 0.0000000000000000000 ) ) ;
#318 = CYLINDRICAL_SURFACE ( 'NONE', #3, 20.00000000000002487 ) ;
#319 = ORIENTED_EDGE ( 'NONE', *, *, #112, .T. ) ;
#320 = PRODUCT_DEFINITION_SHAPE ( 'NONE', 'NONE',  #42 ) ;
#321 = PRODUCT_RELATED_PRODUCT_CATEGORY ( 'part', '', ( #172 ) ) ;
#322 = CARTESIAN_POINT ( 'NONE',  ( 3.644646946001881914E-14, 0.1901675980018908141, 0.0000000000000000000 ) ) ;
#323 = CIRCLE ( 'NONE', #62, 17.19653266046553242 ) ;
#324 =( NAMED_UNIT ( * ) PLANE_ANGLE_UNIT ( ) SI_UNIT ( $, .RADIAN. ) );
#325 = CARTESIAN_POINT ( 'NONE',  ( 0.0000000000000000000, 0.0000000000000000000, 0.0000000000000000000 ) ) ;
#326 = EDGE_CURVE ( 'NONE', #110, #179, #183, .T. ) ;
#327 = ORIENTED_EDGE ( 'NONE', *, *, #225, .F. ) ;
#328 = DIRECTION ( 'NONE',  ( -7.284826300225047977E-16, -1.000000000000000000, 0.0000000000000000000 ) ) ;
#329 = DIRECTION ( 'NONE',  ( -7.284826300225047977E-16, -1.000000000000000000, 0.0000000000000000000 ) ) ;
#330 = CIRCLE ( 'NONE', #200, 20.00000000000001776 ) ;
#331 = CARTESIAN_POINT ( 'NONE',  ( 3.594369435307007795E-14, -0.5000000000000143219, 0.0000000000000000000 ) ) ;
#332 = AXIS2_PLACEMENT_3D ( 'NONE', #254, #328, #190 ) ;
#333 = DIRECTION ( 'NONE',  ( 7.284826300225047977E-16, 1.000000000000000000, -0.0000000000000000000 ) ) ;
#334 = VERTEX_POINT ( 'NONE', #263 ) ;
#335 = CARTESIAN_POINT ( 'NONE',  ( 7.639815279223594207E-14, 4.500000000000003553, 0.0000000000000000000 ) ) ;
#336 =( GEOMETRIC_REPRESENTATION_CONTEXT ( 3 ) GLOBAL_UNCERTAINTY_ASSIGNED_CONTEXT ( ( #279 ) ) GLOBAL_UNIT_ASSIGNED_CONTEXT ( ( #25, #324, #130 ) ) REPRESENTATION_CONTEXT ( 'NONE', 'WORKASPACE' ) );
#337 = PLANE ( 'NONE',  #191 ) ;
#338 = EDGE_CURVE ( 'NONE', #271, #85, #295, .T. ) ;
#339 = FACE_OUTER_BOUND ( 'NONE', #100, .T. ) ;
#340 = ORIENTED_EDGE ( 'NONE', *, *, #39, .T. ) ;
#341 = DIRECTION ( 'NONE',  ( -1.000000000000000000, 6.938893903907222461E-16, 0.0000000000000000000 ) ) ;
#342 = CARTESIAN_POINT ( 'NONE',  ( -23.00000000000002132, -0.5000000000000001110, 0.0000000000000000000 ) ) ;
#343 = EDGE_LOOP ( 'NONE', ( #227, #141, #319, #61 ) ) ;
#344 = EDGE_CURVE ( 'NONE', #36, #273, #11, .T. ) ;
#345 = ORIENTED_EDGE ( 'NONE', *, *, #268, .T. ) ;
#346 = ORIENTED_EDGE ( 'NONE', *, *, #217, .T. ) ;
#347 = DIRECTION ( 'NONE',  ( -1.000000000000000000, 7.306579858054467968E-16, 0.0000000000000000000 ) ) ;
#348 = AXIS2_PLACEMENT_3D ( 'NONE', #109, #142, #204 ) ;
#349 =( NAMED_UNIT ( * ) PLANE_ANGLE_UNIT ( ) SI_UNIT ( $, .RADIAN. ) );
#350 = CONICAL_SURFACE ( 'NONE', #32, 17.50000000000002132, 0.03490658503988729178 ) ;
#351 = DIRECTION ( 'NONE',  ( 7.284826300225047977E-16, 1.000000000000000000, -0.0000000000000000000 ) ) ;
#352 = ORIENTED_EDGE ( 'NONE', *, *, #344, .T. ) ;
ENDSEC;
END-ISO-10303-21;
